Como leer Tablaturas o Tabs

Tu portal para aprender a tocar guitarra

Anuncio Patrocinado

Anuncio Patrocinado

Bends

 

E:----------------------------
B:----------------------------
G:-----7b9----------7b(9)-----
D:----------------------------
A:-----------------------------
E:-----------------------------

 

Ver sección de Bends

 

Reverse Bends (Release Bends)

 

E:-----7r5----------(7)r5---------
B:--------------------------------
G:--------------------------------
D:--------------------------------
A:--------------------------------
E:--------------------------------

 

Ver sección de Reverse Bends

Smears

 

E:--------------------------------
B:--------------------------------
G:-------7b------------7^(.7)-----
D:-----9----9--------9--------9---
A:--------------------------------
E:--------------------------------

 

Ver sección de Smears

 

Ghost notes and
optional notes

 

E:--------------------
B:--------------3-----
G:--------------2-----
D:--------------0-----
A:---6--(0)--6--------
E:--------------------

 

Ver sección de Ghost notes

 

Right Hand Tapping

                         
E:------t15p5h8t12--- or –15^5^7^12
B:------------------------------------
G:------------------------------------
D:------------------------------------
A:------------------------------------
E:------------------------------------

 

Ver sección de Tapping

 

Rhythm click or Muted string

 

E:----3-x-x-3-x-x-3---
B:----3-x-x-3-x-x-3---
G:----4-x-x-4-x-x-4---
D:----5-x-x-5-x-x-5---
A:----5-x-x-5-x-x-5---
E:----3-x-x-3-x-x-3---


E:----3----- 4to dedo
B:----3----- 3er dedo
G:----0----- cuerda al aire
D:----0----- cuerda al aire
A:----x----- mute con tu segundo dedo
E:----3----- 2do dedo

 

Ver sección de Muted Strings

Vibrato

                    
E:-------------------------
B:-------------------------
G:-----7v----7~~~-------
D:-------------------------
A:-------------------------
E:-------------------------


Los 2 significan vibrato.

 

Ver sección de Vibratos

 

Natural Harmonics

 

E:-----------
B:-----------
G:----<12>---
D:-----------
A:-----------
E:-----------

 

Ver sección de Natural Harmonics

 

Palm Mute

 

E:------------------------
B:------------------------
G:------------------------
D:------------------------
A:----6-6-6-6-6-6-6-6---
E:----0-0-0-0-0-0-0-0---
     P.M.----------------|

 

Ver sección de Palm Mute

 

Anterior

Siguiente

 

 

Ir a principiates