Como Leer Tablaturas o Tabs

Tu portal para aprender a tocar guitarra

Anuncio Patrocinado

Anuncio Patrocinado

 

Símbolos en la Tablatura

 

h = hammer-on
p = pull-off
/ = slide up
\ = slide down
s = slide
p.m.= palm muted

b = bend
r = reverse bend, or release bend

t = right hand tap
+ = right hand tap

x = rhythm click or muted string
v = vibrato
~ = vibrato
(5) = ghost note, or optional note
<5> = harmonic

 

 

Ver Sección Relacionada: Técnicas de Guitarra

 

Hammer-ons


E:--------------------------------
B:--------------------------------
G:--------------------------------
D:--------------------------------
A:---------------5^7-------5^7--
E:-----6h8------------------------


Los 3 son formas como se pueden poner los hammer-on.

 

Ver sección de Hammer-ons

 

Pull-offs


E:--------------------------------
B:--------------------------------
G:--------------------------------
D:--------------------------p-----
A:-----9p7-------9^7-------9^7----
E:--------------------------------
Los 3 ejemplos son formas de poner los pull-offs.

 

Ver sección de Pull-Offs

 

Slides

 

La diagonal para enfrente (/) se usa para indicar el slide para arriba. Y la diagonal para atrás (\) se usa para representar el slide para abajo.


E:--------------------
B:--------------------
G:-----9/11----9\7---
D:--------------------
A:--------------------
E:--------------------


El siguiente es para indicar un slide que se hace de unos traste abajo los que tu quieras, no indica transción entre dos notas, es solo para decorar la canción


E:------------------
B:------------------
G:-----/11--or--\9--
D:------------------
A:------------------
E:------------------


Otro símbolo que se puede indicar para el slide es "s".


E:----------------
B:----------------
G:---5s7---7s5----
D:----------------
A:----------------
E:----------------

 

Ver sección de Slide