Como hacer un vibrato

Tu portal para aprender a tocar guitarra

Anuncio Patrocinado

Anuncio Patrocinado

Vibrato

 

Se pone con una "v" o con guiones curveados, se hace para sostener la nota un poco más de tiempo después de que ya tocaste la nota. Se hace mínimo con 2 dedos, se puede hacer con 3 o con 4 dedos. Subes y bajas la nota pero sin llegar a hacer un bending. Consiste en tocar la nota y mover tus dedos para arriba y para abajo preferentemente utiliza algo de la fuerza de tu muñeca para que se te facilite ésta técnica.

                    
E:-------------------------
B:-------------------------
G:-----7v----7~~~-------
D:-------------------------
A:-------------------------
E:-------------------------


Los 2 significan vibrato.

 

 

 

 

 

Ejemplo 1 del Video

 

E:------------------------------------------------------------------------------------------------
B:------------------------------------------------------------------------------------------------
G:-----------------------4-7v-----5v------5v----5------------12-12v 16-14-12-16p14p12-11v-
D:---5v----5v-------5--5-----------------7----7--7-4-7-----------------------------------------
A:-------5---------5--5-----------------------------------5v-------------------------------------
E:------------------------------------------------------------------------------------------------

 

E:---------------------------------------------------------------
B:-------13-----------------------------------------------------
G:-----14—11-14p12-12----------------------------------------
D:---------------------------------------------------------------
A:---------------------------------------------------------------
E:---------------------------------------------------------------

 

 

Anterior

 

Siguiente

 

Volver a Como leer Tablaturas

 

Volver a Técnicas de Guitarra