Ejercicios de la Escala Pentatónica Menor

Tu portal para aprender a tocar guitarra

Anuncio Patrocinado

Anuncio Patrocinado

 

Licks de la Escala Pentatónica Menor

 

Al principio puede parecer inútil aprenderse las escalas, cuando te vas iniciando en el mundo de la música, pero en realidad tienen infinidad de usos, te abren un mundo extenso.

 

Entonces Para que sirve aprenderte la escala pentatónica Menor??? o alguna otra escala?? Para tocar solos, improvisar, y en resumen para hacer música es decir para ayudarte en el proceso de creatividad.

 

Te pondré unos ejemplos para que practiques la escala, y para que veas lo que se puede hacer con la escala.

 

Transformate en el hombre que ellas quieren

 

Lick 1

 

E:-10---8-10------------10---8-10------------------------------------
B:------------10-8---10------------10-8----10------------------------
G:------------------------------------------------9----7-9--------------
D:----------------------------------------------------------10-7---10--
A:-----------------------------------------------------------------------
E:-----------------------------------------------------------------------

 

E:---------------------------------------------------------------
B:---------------------------------------------------------------
G:-9---7-9-------------9---7-9-7----7-------------------------
D:----------10-7---10------------10---------------------------
A:---------------------------------------------------------------
E:---------------------------------------------------------------

 

Escucha el video para que te des una idea del ritmo

 

 

 

Lick 2

 

E:-----------------------------------------------------------------------------
B:-----------------------------------------------------------------------------
G:-----------12-----------------------------------12-------------------------
D:-12-10-12---12-10-12-10---------12-10-12----12-10-12-10----------
A:-----------------------------12-15-----------------------------------------
E:--------------------------------------------------------------------12-15--

 

Escucha el video para que te des una idea del ritmo

 

Transformate en el hombre que ellas quieren

 

 

 

Lick 3

 

E:-12p8---12p8---12p8-----15p12---15p12---15p12-----17p12---17p12---17p12----
B:-------10-----10------10----------13-------13-------13---------15--------15-------15-
G:---------------------------------------------------------------------------------------------
D:---------------------------------------------------------------------------------------------
A:---------------------------------------------------------------------------------------------
E:---------------------------------------------------------------------------------------------

 

 

 

Anuncio Patrocinado

Anuncio Patrocinado

 

 

 

Anterior

 

Siguiente

 

Volver a Pentatónica Menor

 

Volver a Escalas