Como hacer un Palm Muted

Tu portal para aprender a tocar guitarra

Anuncio Patrocinado

Anuncio Patrocinado

 

Palm Muted

 

El palm muted consiste en apagar las cuerdas, es decir poner la palma de tu mano derecha sobres las cuerdas mientras tocas la cuerda con tu PUA. Esto produce un sonido como más apagado, se usa mucho en el metal, alternativo, punk, y otros tipos de música derivados del rock.

 

 

E:------------------------
B:------------------------
G:------------------------
D:------------------------
A:----6-6-6-6-6-6-6-6---
E:----0-0-0-0-0-0-0-0---
     P.M.----------------|

 

 

 

Ejericicio 1 del video

 

E:--------------------------------------------
B:--------------------------------------------
G:--------------------------------------------
D:--------------------------------------------
A:--------------13-12------------9-11-12----
E:----0-0-0-0--11-10--0-0-0-0--7--9-10----
        P.M.—-|               P.M.---|

 

Y se repite este pedazo varias veces. Este ejericico es bueno para practicar poner y quitar el palm muted.

 

Ejercicio 2 del video

 

E:----------------------------------------
B:----------------------------------------
G:----------------------------------------
D:----------------------------------------
A: ---------------------------------------
E:----0-0-0-0--0-0-0-0-0-0-0--0-0-0-0-
        P.M.—-|    P.M.----------|   P.M.---|

 

Y se repite varias veces. Este ejercicio es un poco más complicado.

 

 

Anterior

 

Siguiente

 

Volver a Como leer Tablaturas

 

Volver a Técnicas de Guitarra