Como hacer un bend

Tu portal para aprender a tocar guitarra

Anuncio Patrocinado

Anuncio Patrocinado

Bends

 

Con está técnica puedes hacer llorar a la guitarra, consiste en doblar la cuerda o jalarla para arriba(se tiene que hacer mínimo con 3 dedos; el índice, anular y medio, para que tengas buena fluidez, se puede hacer tambíen con los cuatro dedos, ésto último es más para más avanzados) jalas la cuerda para llevar la nota incial medio tono arriba (es decir un traste más de la nota que tocaste, si tocaste el traste 7 debe sonar como el traste 8); puedes llevarla medio tono, un tono(es decir dos trastes más de la nota que tocaste, si tocaste el traste 7 debe sonar como el traste 9), un tono y medio (es decir tres trastes más de la nota que tocaste, si tocaste el traste 7 debe sonar como el traste 10) o dos tonos arriba (es decir cuatro trastes más de la nota que tocaste, si tocaste el traste 7 debe sonar como el traste 11).

 

En la tablatura se pone con una b, para referirse a esta técnica, y seguidamente se pone la nota que debes producir cuando hagas el bending.

 

E:----------------------------
B:----------------------------
G:-----7b9----------7b(9)-----
D:----------------------------
A:-----------------------------
E:-----------------------------

 

 

Ejercicio 1 del video

 

 

E:-----------12---------------15--------------15-17b19---17p15--------15---
B:---------12---15b17-15b17---15b17----17---------------------17p15---17
G:--14b16---------------------------------------------------------------------
D:-----------------------------------------------------------------------------
A:-----------------------------------------------------------------------------
E:-----------------------------------------------------------------------------

 

 

Anterior

 

Siguiente

 

Volver a Como leer Tablaturas

 

Volver a Técnicas de Guitarra